!
 
 
, , , , Texts of songs, the song text, chords, notes
, , , , Texts of songs, the song text, chords, notes F Five Iron Frenzy
Fistful Of Sand -



Fistful Of Sand


Song:Fistful of Sand
Band:Five Iron Frenzy
CD(Track):Our Newest Album Ever(4)
Tabber:Bobby Keahey


(Song starts with a drum lead in to the intro)

INTRO
(Play twice) 1st ending (repeat)
2nd ending
------------------------------------------------------|-----------------------
------3-7-3----------------------------------3-5-2----|3-3-3--3-3-------------
-5-5---------5---------1-1-3---------4-7---5--------3-|-----3----3------------
-----------------3-3-3--------5-5-5------5------------|------------5-6-5-6-5-5

VERSE
----------------------------------------------------------------------
----3-7-3----3-7-6---5-5-3---3---5-5-3---------------------------3----
-5--------5----------------5-----------5-6---7-7-4----4---7-7-7----4--
---------------------------------------------------5------------------
(1st ending) (2nd ending)
---------|----------|----------|
---3-7-3-|---7-5-3--|----------|
-5-------|-5--------|-5-5-4-2--|
---------|----------|----------|

PRE-CHORUS
--------------------------------------------------------------------------
--------------------------3-7-3------------------------------------3-7-3--
----4-7-4------4-7-4---5---------5-5-4-2------4-7-4------4-7-4---5--------
-5----------5-----------------------------5-----------5-------------------

----------
--------3-
-5-5-7----
----------

CHORUS
-------------------------------------------------------------------------
-5-5-3--3----5-5-3----------3-7-3-----------3----5-5-3--3---5-5-3--3-----
-------5-----------5-3----5----------5-5-7----5-----------5--------------
-------------------------------------------------------------------------
(Ending going into bridge)
---------------- -----------------------
-7-7-5--5----7-- -7-7-5--5----7-5-------
-------7-------- -------7----------8-7--
---------------- -----------------------


INTRO
VERSE
PRE-CHORUS
CHORUS

BRIDGE
---------------------------------------------------------
---------------------------------------2-3---------------
---------------5-5-5-5-8-7----3-3-3-3-------5-5-5-5------
-3-3-3---6-6-6--------------------------------------6-5--
(Repeat BRIDGE once)
-------------------------------------------------------------------
-------------------------------------------------3-3-3-3-----------
----------------5-5-5-5-8-7-------------------------------4-4-4-4--
-3-3-3---6-6-6----------------5-5-5-5---5-5-5-5--------------------

CAMEL-WALK LEAD IN TO HARDCORE!!!
(Play 12 times)(Play 8 times)
--------------------------- ---------------------------------------
--------------------------- ---------------------------------------
-5--------5---------------- -------------------5------5------------
---4h5------4h5-4h5-------- -5-5-5-5-5-5-5-5-----4h5-----4h5-4h5---

VERSE
PRE-CHORUS
CHORUS
END

If you would like to e-mail me, my e-mail address is
[email protected]

Send me some email-people!!
If you have corrections and the like, please send them.



Die Texte der Lieder. - 500 .

22.04.2009 - Left -
22.04.2009 - Oh Canada -
22.04.2009 - Oh, Canada -
22.04.2009 - Old West -
22.04.2009 - Omnivores For Mediocrity -
. ?
, .
 
ICQ status
icq: 555444639