Главная
Видео клипы
Новости проекта
Личный кабинет
Тексты песен
Русские тексты песен
Анг тексты песен
Добавить текст
Табулатуры
Русские табы
Английские табы
Популярные
Наши проекты
Сервер электронной музыки
Форум
форумы



  Приходят
Нет содержания для этого блока!
  Часто посещаемые
Качай Железо! - текс…
Песня Скинхэда - тек…
White Power
Друзья по Пиву - тек…
Умма - аккорды песни
Наша страна
Убей янки
Шитскин
Бритоголовые идут
Убить Жида - текст п…
ИншаАллаh! Сады Нас …
Одинокий голубь
Карие глаза
Пoгoдa в Дoмe
Братан
  Лучшие по рейтингу
Пoгoдa в Дoмe
Голубь
Got to Tell me Somet…
В Никуда - аккорды п…
В Никуда - текст пес…
В никуда
В Сибирь
Вертолёт
Вечно Молодой - акко…
Вечно молодой
Всё в Поpядке - акко…
Всё в порядке
Всё под контролем
Все Под Контролем - …
Гробики
  Тизеры
  Партнеры
Тексты песен, слова песни, аккорды, ноты, табулатуры
Тексты песен, слова песни, аккорды, ноты, табулатуры » З » Зинчук Виктор
Yakety axe



Yakety axe

[E||----------------------|-----------------------------|
B||----------------------|-----------------------------|
G||------------------5-4-|-----------------------------|
D||--------------0-5-----|--7--5-----------------------|
A||----------------------|--------7--3--5-7-5-3--------|
E||----------------------|----------------------5--3-5-|

--------------------------|-------------------------------|
--------------------------|-------------------------------|
--------------------------|-------------------------------|
-------------------5------|-------5-7-5--------------5-7--|
--3--3--3-5-7-3-7---------|--3--7-------6h7-3--3-6-7------|
--------------------------|-------------------------------|

----------------------------|----------------------------|
-----------3----------------|----------------------------|
-------3-4---4--------------|--5--5-5-5--5-5-5--5--------|
--5--5----------5-----5h7p5-|----------------------7-5---|
----------------------------|----------------------------|
----------------------------|----------------------------|

------------------------------|----------------------------|
------------------------------|----------------------------|
------------------5-7-5-8-5---|----------------------0h2p0-|
--3--3-3-3--3-3-7-------------|-------2---5p-0--2h3--------|
------------------------------|--3--3----------------------|
------------------------------|----------------------------|

--------------------------|--------------------|---------------------|
--1--1--------------------|--------------------|---------------------|
--------2p0---------------|--------------------|---------------7~--9-|
------------2p0--------x--|--x--------------x--|--x------------------|
----------------3------x--|--x--------------x--|--x------------------|
--------------------------|--------------------|---------------------|

|---------------------------------|------------------------------|
|---8--8--------------------------|------------------8-----------|
|*--------9-7------7---9--7-------|------------7h9p7-------7-9-7-|
|*---------------9---9------9-7-9-|------7h8h9-------------------|
|-------------10------------------|--10--------------------------|
|---------------------------------|------------------------------|

---------------------------------|-----------------------------|
--8--8---------------------------|---------7-10-7--------------|
--------9-7------7---9--7--------|--7--7-7---------7-----7h9p7-|
---------------9---9------9----9-|-----------------------------|
------------10--------------10---|-----------------------------|
---------------------------------|-----------------------------|

----------------------------|------------------------------------|
--8--8-8-8--8-8-8--8--------|--------------------8-10-8-11-8--11-|
----------------------9-7---|------------------9-----------------|
----------------------------|--10--10--10--10--------------------|
----------------------------|------------------------------------|
----------------------------|------------------------------------|

-----------------10--------10-------------|--12------------------------------|
--12-11-12-11-12-----11-12----12----------|-----12-12----10------------------|
----------------------------------12------|------------------12--12----7~--9-|
--------------------------------------12--|-----------12---------------------|
------------------------------------------|----------------------------------|
------------------------------------------|----------------------------------|

--------------------------------|------------------------------|
--8--8--------------------------|------------------8-----------|
--------9-7------7---9--7-------|------------7h9p7-------7-9-7-|
---------------9---9------9-7-9-|------7h8h9-------------------|
------------10------------------|--10--------------------------|
--------------------------------|------------------------------|

---------------------------------|-----------------------------|
--8--8---------------------------|---------7-10-7--------------|
--------9-7------7---9--7--------|--7--7-7---------7-----7h9p7-|
---------------9---9------9----9-|-----------------------------|
------------10--------------10---|-----------------------------|
---------------------------------|-----------------------------|

----------------------------|------------------------------------|
--8--8-8-8--8-8-8--8--------|--------------------8-10-8-11-8--11-|
----------------------9-7---|------------------9-----------------|
----------------------------|--10--10--10--10--------------------|
----------------------------|------------------------------------|
----------------------------|------------------------------------|

-----------------10--------10-------------|--12----------------------------|
--12-11-12-11-12-----11-12----12----------|-----12-12----10----------------|
----------------------------------12------|------------------12--12--------|
--------------------------------------12--|-----------12-------------------|
------------------------------------------|--------------------------------|
------------------------------------------|--------------------------------|

------------------|------------6~-----|----7--6-7-6----------------|
------------------|-------------------|-------------10-9--8--7--8--|
------------------|-------------------|----------------------------|
------------------|-------------------|----------------------------|
------------------|-------------------|----------------------------|
------------------|-------------------|----------------------------|

------------------------------|-------------------8--8------------|
--10--9--8-9-8-7--------------|------------8h10p8-------10-8------|
-----------------10--9--8--9--|------7h8h9----------------------9-|
------------------------------|--10--------------------------10---|
------------------------------|-----------------------------------|
------------------------------|-----------------------------------|

---------7-10-7---------------|--8--8-8-8--8-8-8--8---------|
--8--8-8---------8-----8-10-8-|----------------------10-8---|
------------------------------|-----------------------------|
------------------------------|-----------------------------|
------------------------------|-----------------------------|
------------------------------|-----------------------------|

-------------------8-10-8-11-8---|--------------------------------|
--6--6-6-6--6-6-10---------------|-------------8-----------8-10-8-|
---------------------------------|---------9------7--9-10---------|
---------------------------------|--10--10------------------------|
---------------------------------|--------------------------------|
---------------------------------|--------------------------------|

--8--8-------------------8-7-|---------------------------------|
--------10-8-----------------|--10--8--------------------------|
-------------9-7-------------|---------9------7-9-7------------|
-----------------10----------|------------10--------10-7-----7-|
-----------------------------|----------------------------10---|
-----------------------------|---------------------------------|

------------------------------|------------------------------------|
-----------------------8------|--------8-10-8----------------8-10--|
-------------7-9----9---------|------9--------8h9--------8-9-------|
--10--10--10-----10-----------|--10---------------10--10-----------|
------------------------------|------------------------------------|
------------------------------|------------------------------------|

-------6-7-10-7---------------|--8--8-8-8--8-8-8--8---------|
--8--8-----------8-----8h10p8-|----------------------10-8---|
------------------------------|-----------------------------|
------------------------------|-----------------------------|
------------------------------|-----------------------------|
------------------------------|-----------------------------|

-------------------8-10-8-11-8---|--------------------------------|
--6--6-6-6--6-6-10---------------|-------------8-----------8-10-8-|
---------------------------------|---------9------7--9-10---------|
---------------------------------|--10--10------------------------|
---------------------------------|--------------------------------|
---------------------------------|--------------------------------|

--8--8---------------------|------------------|---------------------||
--------10-8---------------|------------------|---------------------||
-------------9-7-----------|------------------|--------------7~--9-*||
-----------------10--------|------------------|--------------------*||
---------------------------|------------------|---------------------||
---------------------------|------------------|---------------------||

--------------------------------|------------------------------|
--8--8--------------------------|------------------8-----------|
--------9-7------7---9--7-------|------------7h9p7-------7-9-7-|
---------------9---9------9-7-9-|------7h8h9-------------------|
------------10------------------|--10--------------------------|
--------------------------------|------------------------------|

---------------------------------|-----------------------------|
--8--8---------------------------|---------7-10-7--------------|
--------9-7------7---9--7--------|--7--7-7---------7-----7h9p7-|
---------------9---9------9----9-|-----------------------------|
------------10--------------10---|-----------------------------|
---------------------------------|-----------------------------|

----------------------------|------------------------------------|
--8--8-8-8--8-8-8--8--------|--------------------8-10-8-11-8--11-|
----------------------9-7---|------------------9-----------------|
----------------------------|--10--10--10--10--------------------|
----------------------------|------------------------------------|
----------------------------|------------------------------------|

-----------------10--------10-------------|--12------------------------------|
--12-11-12-11-12-----11-12----12----------|-----12-12----10------------------|
----------------------------------12------|------------------12--12----7~--9-|
--------------------------------------12--|-----------12---------------------|
------------------------------------------|----------------------------------|
------------------------------------------|----------------------------------|

--------------------------------|------------------------------|
--8--8--------------------------|------------------8-----------|
--------9-7------7---9--7-------|------------7h9p7-------7-9-7-|
---------------9---9------9-7-9-|------7h8h9-------------------|
------------10------------------|--10--------------------------|
--------------------------------|------------------------------|

---------------------------------|-----------------------------|
--8--8---------------------------|---------7-10-7--------------|
--------9-7------7---9--7--------|--7--7-7---------7-----7h9p7-|
---------------9---9------9----9-|-----------------------------|
------------10--------------10---|-----------------------------|
---------------------------------|-----------------------------|

----------------------------|------------------------------------|
--8--8-8-8--8-8-8--8--------|--------------------8-10-8-11-8--11-|
----------------------9-7---|------------------9-----------------|
----------------------------|--10--10--10--10--------------------|
----------------------------|------------------------------------|
----------------------------|------------------------------------|

-----------------10--------10-------------|--12------------------------------|
--12-11-12-11-12-----11-12----12----------|-----12-12----10------------------|
----------------------------------12------|------------------12--12----------|
--------------------------------------12--|-----------12---------------12----|
------------------------------------------|----------------------------------|
------------------------------------------|----------------------------------|

----------------------|----------------------|------------------------|
----------------------|----------------------|------------------------|
--12------------------|--12------------------|--12--------------12----|
----------------12----|----------------12----|--------------12--------|
----------------------|----------------------|------------------------|
----------------------|----------------------|------------------------|]





Тексты песен - На сайте свыше 500 текстов песен. Текст песни Yakety axe
Kod dlya Saita
Prosto ssilka
Разместил: Guest

Дополнительно по данной категории

22.04.2009 - El Condor Pasa (Полет Орла) - аккорды песни
22.04.2009 - Крестный отец
22.04.2009 - Лолита
22.04.2009 - Мapш из oпepы Aидa
22.04.2009 - Марш Из Оперы &Quot;Аида&Quot; - аккорды песни
Нет комментариев. Почему бы Вам не оставить свой?
Вы не можете отправить комментарий анонимно, пожалуйста войдите или зарегистрируйтесь.
  Контакты
ICQ status
icq: 555444639
Тексты песен