Главная
Видео клипы
Новости проекта
Личный кабинет
Тексты песен
Русские тексты песен
Анг тексты песен
Добавить текст
Табулатуры
Русские табы
Английские табы
Популярные
Наши проекты
Сервер электронной музыки
Форум
форумы



  Приходят
Нет содержания для этого блока!
  Часто посещаемые
Качай Железо! - текс…
Песня Скинхэда - тек…
White Power
Друзья по Пиву - тек…
Умма - аккорды песни
Наша страна
Убей янки
Шитскин
Бритоголовые идут
Одинокий голубь
Карие глаза
Пoгoдa в Дoмe
Братан
Вахтёрам
Забудь Его, Забудь -…
  Лучшие по рейтингу
Пoгoдa в Дoмe
Голубь
Got to Tell me Somet…
В Никуда - аккорды п…
В Никуда - текст пес…
В никуда
В Сибирь
Вертолёт
Вечно Молодой - акко…
Вечно молодой
Всё в Поpядке - акко…
Всё в порядке
Всё под контролем
Все Под Контролем - …
Гробики
  Тизеры
  Партнеры
Тексты песен, слова песни, аккорды, ноты, табулатуры
Тексты песен, слова песни, аккорды, ноты, табулатуры » А » Авторская Песня
Д. Тюрк - Пьеса. Andante, Espressivo. - табы песни



Д. Тюрк - Пьеса. Andante, Espressivo.


Frot ( тексты песен и аккорды на Tekst-pesni.ru ): Александр Караваев [email protected]

18 век.
Пьеса.

=-- одна четверть.
* подержать звучание, приглушить струны,
далее с тишины.

3/4.
Andante, espressivo.
*
e|----0-- |=--=--0--|=--=-- 0--|=--=--=--|=--=--=--|
h|----=--|=--=--=--|=--=--=--|=--3-- 1--|0--=--0--|
g|----=--|2--=--=-- |1--=--=--|2--=--=-- |=--=--=--|
d|----=--|=--=--=--|=--=--=--|=--=--=--|2--=--=--|
a|----=--|=--3--=-- |=--2--=--|3-- 2-- 0--|=--=--=--|
e|----=--|=--=--=--|=--=--=--|=--=--=--|=--0--=--|


e |1--=--=-- |=--=--0--|=--=--=--|=--=--=--||
h |=--=--=--|=--=--=--|3-- 1--0--|=--=--=--||
g |=--=-- 1--|2--=--=--|=--=--=--|212=--=--||
d |=-- 0--=--|=--=--=--|=--2--=--|=--=--=--||
a |=--=--=--|=--=--=--|2-- =--=--|0--=--=--||
e |=--=--=--|=-- 3--=--|=--=--0--|=--=--=--||





Тексты песен - На сайте свыше 500 текстов песен. Текст песни Д. Тюрк - Пьеса. Andante, Espressivo. - табы песни
Kod dlya Saita
Prosto ssilka
Разместил: Guest

Дополнительно по данной категории

22.04.2009 - Ярослав Увдокимов - Колодец - текст песни
22.04.2009 - Школа №671 - Особенности Национального Рынка - аккорды песни
22.04.2009 - Школа №671 - Неведомый Бог - аккорды песни
22.04.2009 - Школа №671 - Баллада о Пиве (прикольная)(для Копании) - аккорды песни
22.04.2009 - Шехтер Владимир - Чайка - текст песни
Нет комментариев. Почему бы Вам не оставить свой?
Вы не можете отправить комментарий анонимно, пожалуйста войдите или зарегистрируйтесь.
  Контакты
ICQ status
icq: 555444639
Тексты песен