Главная
Видео клипы
Новости проекта
Личный кабинет
Тексты песен
Русские тексты песен
Анг тексты песен
Добавить текст
Табулатуры
Русские табы
Английские табы
Популярные
Наши проекты
Сервер электронной музыки
Форум
форумы



  Приходят
Нет содержания для этого блока!
  Часто посещаемые
Качай Железо! - текс…
Песня Скинхэда - тек…
Друзья по Пиву - тек…
White Power
Наша страна
Умма - аккорды песни
Шитскин
Убей янки
ИншаАллаh! Сады Нас …
Бритоголовые идут
Убить Жида - текст п…
Миротворцы России
Друзья по пиву
Одинокий голубь
Карие глаза
  Лучшие по рейтингу
Пoгoдa в Дoмe
Голубь
Got to Tell me Somet…
В Никуда - аккорды п…
В Никуда - текст пес…
В никуда
В Сибирь
Вертолёт
Вечно Молодой - акко…
Вечно молодой
Всё в Поpядке - акко…
Всё в порядке
Всё под контролем
Все Под Контролем - …
Гробики
  Тизеры
  Партнеры
Тексты песен, слова песни, аккорды, ноты, табулатуры
Тексты песен, слова песни, аккорды, ноты, табулатуры » П » Пародии
Киш - Дурак и Молния - аккорды песни



Киш - Дурак и Молния


Frot ( тексты песен и аккорды на Tekst-pesni.ru ): Che Gevaro [email protected]


1------------------------------------------------------------------------------
2------------------------------------------------------------------------------
3---------------------------------------------4--------------------------------
4---------------------6--4--------4--6-----6----6--------------------6--4------
5---0--4--6--7-----6--------4--7--------4----------0--4--6--7-----6---------4--
6---------------4----------------------------------------------4---------------

Am(V) G# Cm#



I. Стоит пузырь
Звенят у панков стаканы
И под кустом
Водяру глушат пацаны
Сейчас налью тебе седьмую
И блевать ты будешь здесь
Но всё кончилось
Пузырь уж вышел весь

Припев песни:
Сейчас пойдем на рынок
Водяру покупать
Мы её напьёмся
И опять блевать

II. И снова пить
Придётся панкам до утра
И снова пить
Не составляет им труда
Сейчас порву себе я куртку
И забъю я свой косяк
Затянусь
И будет снова мне ништяк

Припев песни:
Сейчас пойдем на рынок
Водяру покупать
Снова проблюемся
И опять бухать

H(VII)
Утром
E(VII)
В чужом огороде
A(V) H(VII)
Отдыхали пацаны
G# Cm#
Все в блевоте и в крови
A(V)
И улыбались!!!

1|--------------------------------------------------------------------------

2|----5-5-5-4-4-5--2-----5---7--4-5----5-5-7-7-9--5---10-9--(10
9 10 9 10 9)

3|--------------------2----4------------------------------------------------





Тексты песен - На сайте свыше 500 текстов песен. Текст песни Киш - Дурак и Молния - аккорды песни
Kod dlya Saita
Prosto ssilka
Разместил: Guest

Дополнительно по данной категории

22.04.2009 - Ддт - Что Такое Осень[переделка] - текст песни
22.04.2009 - Машина Времени - Куклы - аккорды песни
22.04.2009 - Песня из Рекламы Nescafe - аккорды песни
22.04.2009 - Чиж и Компания - Колыбельная Хиппи (переделка) - аккорды песни
Нет комментариев. Почему бы Вам не оставить свой?
Вы не можете отправить комментарий анонимно, пожалуйста войдите или зарегистрируйтесь.
  Контакты
ICQ status
icq: 555444639
Тексты песен