Главная
Видео клипы
Новости проекта
Личный кабинет
Тексты песен
Русские тексты песен
Анг тексты песен
Добавить текст
Табулатуры
Русские табы
Английские табы
Популярные
Наши проекты
Сервер электронной музыки
Форум
форумы



  Приходят
Нет содержания для этого блока!
  Часто посещаемые
Качай Железо! - текс…
Песня Скинхэда - тек…
Друзья по Пиву - тек…
White Power
Наша страна
Умма - аккорды песни
Убей янки
Шитскин
Бритоголовые идут
Убить Жида - текст п…
ИншаАллаh! Сады Нас …
Одинокий голубь
Миротворцы России
Карие глаза
Пoгoдa в Дoмe
  Лучшие по рейтингу
Пoгoдa в Дoмe
Голубь
Got to Tell me Somet…
В Никуда - аккорды п…
В Никуда - текст пес…
В никуда
В Сибирь
Вертолёт
Вечно Молодой - акко…
Вечно молодой
Всё в Поpядке - акко…
Всё в порядке
Всё под контролем
Все Под Контролем - …
Гробики
  Тизеры
  Партнеры
Тексты песен, слова песни, аккорды, ноты, табулатуры
Тексты песен, слова песни, аккорды, ноты, табулатуры » П » Песни у костра
Я улетаю...



Я (http://tekst-pesni.ru/) улетаю...

! Вступление:
> Am F Dm E
[e|----0-----0-----0---1-----1-----1---1-----1-----1---0-----0-----0-|
H|------1-----1---------1-----1---------3-----3---------0-----0-----|
G|--------2-----2---------2-----2---------2-----2---------1-----1---|
D|------------------------------------------------------------------|
A|--0---------------3---------------0---------------2---------------|
E|------------------------------------------------------------------|

> Am F Dm E
e|----0-----0-----0---1-----1-----1---1---1-3-1-0-----0-----0-----0-| \
H|------1-----1---------1-----1---------3---------3-----0-----0-----| \
G|--------2-----2---------2-----2-------------------------1-----1---| \
D|------------------------------------------------------------------| / 2 раза
A|--0---------------3---------------0---------------2---------------| /
E|------------------------------------------------------------------| /

! Куплет:
> Am F Dm E
e|----0-----0-----0---1-----1-----1---1---1-3-1-0-----0-----0-----0-|
H|------1-----1---------1-----1---------3---------3-----0-----0-----|
G|--------2-----2---------2-----2-------------------------1-----1---|
D|------------------------------------------------------------------|
A|--0---------------3---------------0---------------2---------------|
E|------------------------------------------------------------------|]

> Am F Dm E Am
Я (http://tekst-pesni.ru/) уже не буду больше летать на крыльях любви.
> F Dm E Am
Я (http://tekst-pesni.ru/) перестану по ночам спать, в том виновата ты.
> F Dm E Am
Я (http://tekst-pesni.ru/) постараюсь тебя забыть, но это само обман.
> F Dm
Я (http://tekst-pesni.ru/) только что пытался память залить,
! (здесь начинается бой)
в голове стоит пьяный дурман

> F Dm E Am
Припев: И ( тексты песен на tekst-pesni.ru ) снова выпивка не лезет в рот и снова я забиваю косяк
> F Dm E Am
Да в этой речке существует брод, но этот брод не для меня
> F Dm E Am
Я (http://tekst-pesni.ru/) рассыпаю перед собой план, я наливаю еще 200 грамм
> F Dm E Am
Я (http://tekst-pesni.ru/) выпиваю, курю и лечу, куда лечу, не знаю и сам...

> Am F Dm E Am
Ты перестала ко мне приходить, ты стала избегать со мной встреч
> F Dm E Am
Ты не желаешь мне звонить...
> F Dm E Am
За то за ним ты бежишь как дитя, когда идет он под руку с другой
> F Dm E Am
А мне почти плевать на тебя я развернусь и пойду домой

! Припев

> Am F Dm E Am
Да алкоголик я и наркоман, уже не раз игла касалась руки
> F Dm E Am
Хотя посмотрим правде в глаза: я никогда ведь не был таким.
> F Dm E Am
Успокоения искала душа, нашла легкий ноглубительный путь
> F Dm E Am
Теперь игла, водка и анаша меня загубят когда-нибудь...

! Припев

И ( тексты песен на tekst-pesni.ru ) снова сердце пробьет игла, и снова водка зальется в грудь
И ( тексты песен на tekst-pesni.ru ) умирая, кричала душа, пытаясь воплями жизнь вернуть
Но с каждым днем все, темнея в глазах и замерзает сердца стук.
И ( тексты песен на tekst-pesni.ru ) вот срывается последняя слеза и выпадает гитара из рук...

! Комментарий автора подбора к песне:
! Припевы играются боем



Тексты песен - На сайте свыше 500 текстов песен. Текст песни Я улетаю...
Kod dlya Saita
Prosto ssilka
Разместил: Guest

Дополнительно по данной категории

22.04.2009 - Я фотографию беру...
22.04.2009 - Суд - аккорды песни
22.04.2009 - Строчка - аккорды песни
22.04.2009 - Стоит Сосна - аккорды песни
22.04.2009 - Стены Моя Крепость - аккорды песни
Нет комментариев. Почему бы Вам не оставить свой?
Вы не можете отправить комментарий анонимно, пожалуйста войдите или зарегистрируйтесь.
  Контакты
ICQ status
icq: 555444639
Тексты песен